Pra Não Dizer Que Não Falei Das Flores

Charlie Brown JR. – Pra Não Dizer Que Não Falei Das Flores

Tom: D

[Intro] Em  D  Em  D
        Em  D  Em  D
        Em  D  Em  D
        Em  D  Em  D

[Primeira Parte]

      Em         D                     Em
Caminhando e cantando e seguindo a canção
               D                    Em
Somos todos iguais braços dados ou não
                 D                    Em
Nas escolas nas ruas, campos, construções
                 D                     Em
Caminhando e cantando e seguindo a canção

[Refrão]

 Em            D                         Em
Vem, vamos embora, que esperar não é saber
                 D                      Em
Quem sabe faz a hora, não espera acontecer
 Em            D                         Em
Vem, vamos embora, que esperar não é saber
                 D                      Em
Quem sabe faz a hora, não espera acontecer

( Em  D  Em  D )

[Segunda Parte]

Em                 D                     Em
  Pelos campos há fome em grandes plantações
                D                  Em
Pelas ruas marchando indecisos cordões
                 D                     Em
Ainda fazem da flor seu mais forte refrão
                  D                Em
E acreditam nas flores vencendo o canhão

[Refrão]

 Em             D                         Em
Vem, vamos embora, que esperar não é saber
                 D                      Em
Quem sabe faz a hora, não espera acontecer
 Em             D                         Em
Vem, vamos embora, que esperar não é saber
                 D                      Em
Quem sabe faz a hora, não espera acontecer

( Em  D  Em  D )

[Terceira Parte]

Em               D                Em
  Há soldados armados, amados ou não
                D                 Em
Quase todos perdidos de armas na mão
                     D                  Em
Nos quartéis lhes ensinam uma antiga lição
                D                  Em
De morrer pela pátria e viver sem razão

[Refrão]

 Em             D                         Em
Vem, vamos embora, que esperar não é saber
                 D                      Em
Quem sabe faz a hora, não espera acontecer
 Em             D                         Em
Vem, vamos embora, que esperar não é saber
                 D                      Em
Quem sabe faz a hora, não espera acontecer

 Em               D                Em
Nas escolas, nas ruas, campos, construções 
                D                Em
Somos todos soldados armados ou não 
                 D                     Em
Caminhando e cantando e seguindo a canção 
               D                    Em 
Somos todos iguais braços dados ou não 
               D                 Em
Os amores na mente, as flores no chão 
               D                    Em
A certeza na frente, a historia na mão 
                 D                     Em
Caminhando e cantando e seguindo a canção 
                  D                Em
Aprendendo e ensinando uma nova lição 

 Em             D                         Em
Vem, vamos embora, que esperar não é saber
                 D                      Em
Quem sabe faz a hora, não espera acontecer
 Em             D                         Em
Vem, vamos embora, que esperar não é saber
                 D                      Em
Quem sabe faz a hora, não espera acontecer

[Final] Em  D  Em  D

Composição de Geraldo Vandrécifraclub

Pra Não Dizer Que Não Falei Das FloresGeraldo Vandré

Vandré-se: Jornada ninja, Bidu Sayão, Quebrada Queer, Um bom lugar, Debaixo dos Caracóis dos seus Cabelos, Kid Vinil

É O Que Me Interessa

Lenine – É O Que Me Interessa

tom: F# (forma dos acordes no tom de G)Afinação: Eb Ab Db Gb Bb Eb

Intro: C4+/G  C/G  C4+/G   C5/G
       G7M     G6   G7M      G

  C4+/G  C/G  C4+/G  C5/G   G7M  G6   G7M     G
E|-----------------------------------------
B|-----------------------------------------
G|-----------------------------------------
D|4----2----4----5-----4----2----4----5----
A|3----3----3----3-----2----2----2----2----
E|3----3----3----3-----3----3----3----3----

  C7M/G  C/G  Am   Am11  G7M   G6    G    G6
E|-----------------------------------------
B|-----------------------------------------
G|4----0----0----0----0----0----0----0-----
D|2----2----2----0----4----2----0----2-----
A|3----3----3----3-------------------------
E|3----3----5----5----3----3----3----3-----

    C7M/G      C/G
Daqui desse momento
     Am           Am11
Do meu olhar pra fora
   G7M          G6   G  G6
O mundo é só miragem
   C7M/G       C/G
A sombra do futuro
   Am          Am11
A sobra do passado
   G7M          G6   G  G6
Assombram a paisagem

  Em                   C9
E|-----------------------------------------
B|-----3------3------------3------3--------
G|-------0------0------------0------0------
D|---------5-------5-----5-----5------5----
A|--2-----------------3--------------------
E|0----------------------------------------

  G
E|-----------------------------------------
B|-----3------3------------3---------------
G|-------0------0------------0-------------
D|---5-----5------5-----5------5-----------
A|-----------------------------------------
E|3------------------3---------------------

      Em
Quem vai virar o jogo
    C9
E transformar a perda
G
  Em nossa recompensa
       Em
Quando eu olhar pro lado
     C9
Eu quero estar cercado
G
  Só de quem me interessa

(Intro)

    C7M/G         C/G
Às vezes é um instante
   Am          Am11
A tarde faz silêncio
   G7M      G6         G  G6
O vento sopra a meu favor
    C7M/G        C/G       Am        Am11
Às vezes eu pressinto e é como uma saudade
       G7M       G6           G  G6
De um tempo que ainda não passou

     Em
Me traz o seu sossego
   C9
Atrasa o meu relógio
G
  Acalma a minha pressa
    Em
Me dá sua palavra
    C9
Sussurra em meu ouvido
G
  Só o que me interessa

(Intro)

   C7M/G  C/G
A lógica do vento
   Am         Am11
O caos do pensamento
   G7M    G6    G  G6
A paz na solidão
  C7M/G   C/G
A órbita do tempo
   Am       Am11
A pausa do retrato
   G7M      G6    G  G6
A voz da intuição
   Em
A curva do universo
   C9
A fórmula do acaso
G
  O alcance da promessa
   Em
O salto do desejo
    C9
O agora e o infinito
G
  Só o que me interessa

   C4+/G  C/G
A lógica do vento
   C4+/G      C/G
O caos do pensamento
   G7M    G6     G7M  G
A paz na solidão
  C4+/G   C/G
A órbita do tempo
   C4+/G    C/G
A pausa do retrato
   G7M      G6    G7M  G
A voz da intuição
   C4+/G     C/G
A curva do universo
   C4+/G   C/G
A fórmula do acaso
     G7M      G6      G7M  G
O alcance da promessa
   C4+/G    C/G
O salto do desejo
    C4+/G      C/G
O agora e o infinito
G
  Só o que me interessa

Composição de Dudu Falcão / Leninecifraclub

Lenize-se: Um Caranguejo Elétrico, Irônico, A Noite, Lá Vem o Brasil Descendo a Ladeira, Um dia, um ladrão, De Jobim a Hermeto

Alceu Valença – Anunciação

Alceu Valença – Anunciação. Show de encerramento do carnaval de Pernambuco no Marco Zero (05/03/2019)

tom: Amcifraclub

[Intro] G  Am  C  G 
        G  Am  C  G 

[Parte 1 de 4]

E|------7-8-7-----------------------------------------|
B|-8-10-------12p8-10p8---8-10-8-10-------------------|
G|----------------------9-----------------------------|
D|----------------------------------------------------|
A|----------------------------------------------------|
E|----------------------------------------------------|

[Parte 2 de 4]

E|------7-8-7-----------------------------------------|
B|-8-10-------12p8-10p8---10/12-10-8-8----------------|
G|----------------------9-----------------------------|
D|----------------------------------------------------|
A|----------------------------------------------------|
E|----------------------------------------------------|

[Parte 3 de 4]

E|------7-8-7-----------------------------------------|
B|-8-10-------12p8-10p8---8-10-8-10b12----------------|
G|----------------------9-----------------------------|
D|----------------------------------------------------|
A|----------------------------------------------------|
E|----------------------------------------------------|

[Parte 4 de 4]

E|------7-8-7-----------------------------------------|
B|-8-10-------12p8-10p8---10/12-10-8-8----------------|
G|----------------------9-----------------------------|
D|----------------------------------------------------|
A|----------------------------------------------------|
E|----------------------------------------------------|

[Primeira Parte]

G                                       Am
  Na bruma leve das paixões que vem de dentro
                          C              G
Tu vens chegando prá brincar no meu quintal
                                  Am
No teu cavalo peito nu cabelo ao vento
                         C           G
E o sol quarando nossas roupas no varal     

                                      Am
Na bruma leve das paixões que vem de dentro
                          C              G
Tu vens chegando prá brincar no meu quintal
                                  Am
No teu cavalo peito nu cabelo ao vento
                         C           G
E o sol quarando nossas roupas no varal     

[Refrão]

    G7      Em7
Tu vens tu vens
F          C              G
  Eu já escuto os teus sinais
    G7      Em7
Tu vens tu vens
F          C              G
  Eu já escuto os teus sinais

[Segunda Parte]

                                  Am
A voz do anjo sussurrou no meu ouvido
                      C              G
E eu não duvido já escuto os teus sinais
                               Am
Que tu virias numa manhã de domingo
                   C              G
Eu te anuncio nos sinos das catedrais

[Refrão]

    G7      Em7
Tu vens tu vens
F          C              G
  Eu já escuto os teus sinais
    G7      Em7
Tu vens tu vens
F          C              G
  Eu já escuto os teus sinais

[Solo] G  Am  C  G 
       G  Am  C  G 

[Parte 1 de 4]

E|------7-8-7-----------------------------------------|
B|-8-10-------12p8-10p8---8-10-8-10-------------------|
G|----------------------9-----------------------------|
D|----------------------------------------------------|
A|----------------------------------------------------|
E|----------------------------------------------------|

[Parte 2 de 4]

E|------7-8-7-----------------------------------------|
B|-8-10-------12p8-10p8---10/12-10-8-8----------------|
G|----------------------9-----------------------------|
D|----------------------------------------------------|
A|----------------------------------------------------|
E|----------------------------------------------------|

[Parte 3 de 4]

E|------7-8-7-----------------------------------------|
B|-8-10-------12p8-10p8---8-10-8-10b12----------------|
G|----------------------9-----------------------------|
D|----------------------------------------------------|
A|----------------------------------------------------|
E|----------------------------------------------------|

[Parte 4 de 4]

E|------7-8-7-----------------------------------------|
B|-8-10-------12p8-10p8---10/12-10-8-8----------------|
G|----------------------9-----------------------------|
D|----------------------------------------------------|
A|----------------------------------------------------|
E|----------------------------------------------------|

[Primeira Parte]

G                                       Am
  Na bruma leve das paixões que vem de dentro
                          C              G
Tu vens chegando prá brincar no meu quintal
                                  Am
No teu cavalo peito nu cabelo ao vento
                         C           G
E o sol quarando nossas roupas no varal     
   
[Refrão]

    G7      Em7
Tu vens tu vens
F          C              G
  Eu já escuto os teus sinais
    G7      Em7
Tu vens tu vens
F          C              G
  Eu já escuto os teus sinais

[Segunda Parte]

                                  Am
A voz do anjo sussurrou no meu ouvido
                      C              G
E eu não duvido já escuto os teus sinais
                               Am
Que tu virias numa manhã de domingo
                   C              G
Eu te anuncio nos sinos das catedrais

[Refrão]

    G7      Em7
Tu vens tu vens
F          C              G
  Eu já escuto os teus sinais
    G7      Em7
Tu vens tu vens
F          C              G
  Eu já escuto os teus sinais

[Final] G  Am  C  G 
        G  Am  C  G 

[Parte 1 de 4]

E|------7-8-7-----------------------------------------|
B|-8-10-------12p8-10p8---8-10-8-10-------------------|
G|----------------------9-----------------------------|
D|----------------------------------------------------|
A|----------------------------------------------------|
E|----------------------------------------------------|

[Parte 2 de 4]

E|------7-8-7-----------------------------------------|
B|-8-10-------12p8-10p8---10/12-10-8-8----------------|
G|----------------------9-----------------------------|
D|----------------------------------------------------|
A|----------------------------------------------------|
E|----------------------------------------------------|

[Parte 3 de 4]

E|------7-8-7-----------------------------------------|
B|-8-10-------12p8-10p8---8-10-8-10b12----------------|
G|----------------------9-----------------------------|
D|----------------------------------------------------|
A|----------------------------------------------------|
E|----------------------------------------------------|

[Parte 4 de 4]

E|------7-8-7-----------------------------------------|
B|-8-10-------12p8-10p8---10/12-10-8-8----------------|
G|----------------------9-----------------------------|
D|----------------------------------------------------|
A|----------------------------------------------------|
E|----------------------------------------------------|

Composição de Alceu Valença

Valenze-se: Deus e o Diabo na Terra do Sol, Norte Nordeste Me Veste, Olney Alberto São Paulo, Pin-up, ANAK KRAKATOA, O FILHO DE KRAKATOA, Uma camiseta do ramones incomoda muita gente, Clarice Lispector do Samba, Clara Nunes.

Sobre O Tempo

https://www.youtube.com/watch?v=aaZlIDXNzKg

Sobre o Tempo – Pato Fu – YouTube

Sobre O Tempo – Pato Fu

Cifra: Principal (violão e guitarra)

Tom: B

[intro:] B F# E

[Intro:]                         ...no final
E|----------------|---------------|---2-------2-------4-------4-------
B|-2-4-2-4-2-2----|--2-4-2-4-2----|-----4-4-----4-4-----4-4-----4-4---
G|-------------4--|------------4--|-4-------4-------4-------4-------4-
D|----------------|---------------|-----------------------------------
A|----------------|---------------|-----------------------------------
E|----------------|---------------|-----------------------------------

B            F#
Tempo tempo mano velho
E
Falta um tanto ainda eu sei
B           F#     E
Pra você correr macio
B             F#     E
Como zune um novo sedã
D#m                E7M
Tempo tempo mano velho
C#m               F#
Tempo tempo mano velho
E       F#
Vai, vai, vai...
        D#m         E7M
Tempo amigo seja legal
        C#m             F#
Conto contigo pela madrugada
                    B E7M B E7M C#m F#
Só me derrube no final

[intro:]

Mude conceitos, você pode e deveFALANDO SOBRE PATO FUÍNDIOSRobin Hulk‘MÚSICA DE BRINQUEDO’ VOLUME 2 X MÁXIMOMídia estão de lutoBOSSA NOSTRAA culpa é de quem!Inicie um abaixo-assinadoCarta de um policial nos protestos de São PauloDe quem é o poder?

Se você é jovem ainda

Se Você É Jovem Ainda – Chaves

Se você é jovem ainda, jovem ainda, jovem ainda
Amanhã velho será, velho será, velho será!
A menos que o coração, que o coração sustente
A juventude que nunca morrerá!

Existem jovens de oitenta e tantos anos
E também velhos de apenas vinte e seis
Porque velhice não significa nada
E a juventude volta sempre outra vez!

Se você é jovem ainda, jovem ainda, jovem ainda
Amanhã velho será, velho será, velho será!
A menos que o coração, que o coração sustente
A juventude que nunca morrerá!

E você é tão jovem quanto sente
Pode apostar: é jovem pra valer
E velho é quem perde a pureza
E também é quem deixa de aprender!

Se você é jovem ainda, jovem ainda, jovem ainda
Amanhã velho será, velho será, velho será!
A menos que o coração, que o coração sustente
A juventude que nunca morrerá!

Não diga não à vida que te espera
Pra festejar a alegria de viver
Pra agradecer a luz do seu caminho
E você vai com isso entender!

Se você é jovem ainda, jovem ainda, jovem ainda
Amanhã velho será, velho será, velho será!
A menos que o coração, que o coração sustente
A juventude que nunca morrerá!

Nhonho: “Olha, olha turma! O Dr. Chapatin!
É o velho mais jovem que eu conheço!”

Dr. Chapatin: “Eu não sou velho, viu!
Sou uma pessoa vivida!”

Nhonho: “É, Dr. Chapatin,
Quantos anos o senhor tem, hein?”

Dr. Chapatin: “Eu? Todos!
Mas isso não te interessa, ouviu!
Jovem ainda!”

Se você é jovem ainda, jovem ainda, jovem ainda
Amanhã velho será, velho será, velho será!
A menos que o coração, que o coração sustente
A juventude que nunca morrerá!

Se você é jovem ainda, jovem ainda, jovem ainda
Amanhã velho será, velho será, velho será!
A menos que o coração, que o coração sustente
A juventude que nunca morrerá!

cifraclub

Mude conceitos, você pode e deve: STRANGER THINGS E A CHIQUINHA, GOOGOL, “TA, TA, TA”: RUBÉN AGUIRRE, EU TE DISSE, EU TE DISSE., EL CHAVO DEL OCHO, HALLOWEEN SACI!, SOZINHO NÃO!

Rivers of Babylon

Rivers of Babylon – Sublimecifraclub

Cifra: Principal

exibições61.398

Tom: G

riff
2x
|-------------3--3-3--3-3-3-----|
|-------------3--3-3--3-3-3-----|
|-------------0--0-0--0-0-0-----|
|-------------0--0-0--0-0-0-----|
|------2-2-3--2--2-2--2-2-2-----|
|--3-3--------3--3-3--3-3-3-----|

|-------------2--2-2--3-2-2-----|
|-------------3--3-3--3-3-3-----|
|-------------2--2-2--2-2-2-----|
|-------------0--0-0--0-0-0-----|
|--2-2-3-3-2--------------------|
|-------------------------------|

|----------------3--3-3--3-3-3--|
|----------------3--3-3--3-3-3--|
|----------------0--0-0--0-0-0--|
|--0-0-02--------0--0-0--0-0-0--|
|----------02----2--2-2--2-2-2--|
|--------------3-3--3-3--3-3-3--|


verse:
                 G
By the rivers of babylon
             G
Where he sat down
             D
and there he wept
                   G
when we remembered Zion


refrão:

Alpha the wicked 
G
carry us away captivity 
  C
required from us a song
G
how can we sing King Alfa's song
      D          G
In a strange land
           
           G            D
so let the words of our mouths
              G           D
and the meditation of our hearts
       G             D      
be acceptable in thy sight
         G
Over I

repete o riff

repete o verso

repete o refrao

G
how can we sing King Alfa's song
     D           G
in a strange land


notas usadas:

    G           D           C
|---3---|   |---2---|   |---0---|
|---3---|   |---3---|   |---1---|
|---0---|   |---2---|   |---0---|
|---0---|   |---0---|   |---2---|
|---2---|   |-------|   |---3---|
|---3---|   |-------|   |-------|

    • ½ tom
    • A
    • A#
    • B
    • C
    • C#
    • D
    • D#
    • E
    • F
    • F#
    • G
    • G#
Acordes para:violão e guitarratecladocavacoukulele
  • C

    123
    X32010
  • D

    123
    XX0232
  • G

    123
    320003

Debaixo dos Caracóis dos seus Cabelos

Fernanda Takai – Debaixo dos Caracóis dos seus Cabelos (ao vivo)Deckdisc

Tom: D

    D
Um dia a areia branca
      Em7
Seus pés irão tocar
   A7
E vai molhar seus cabelos
  D      G      D  
A água azul do mar
   D
Janelas e portas vão se abrir
     Em7
Pra ver você  chegar
  A
E ao se sentir em casa
    D     G      D  A
Sorrindo vai chorar

REFRÃO
   D                             Em7
Debaixo dos caracóis dos seus cabelos
                          A7
Uma história pra contar
                 D    G D A
De um mundo tão distante
   D                                             Em7
Debaixo dos caracóis dos seus cabelos
                          A7
Um soluço e a vontade
                     D     G D A
De ficar mais um instante

REFRÃO
    D
As luzes e o colorido
      Em7
Que você vê agora
   A7
Nas ruas por onde anda
  D      G      D  
Na casa onde mora
    D
Você olha tudo e nada
   Em7
Lhe faz ficar contente
    A
Você só deseja agora
    D     G      D  A
Voltar pra sua gente

REFRÃO
    D
Você anda pela tarde
      Em7
E o seu olhar tristonho
   A7
Deixa sangrar no peito
  D      G      D    A
Uma saudade um sonho
    D
Um dia vou ver você
      Em7
Chegando num sorriso
   A7
Pisando a areia branca
  D      G    D    A
Que é seu paraíSo

REFRÃO

Índios

 https://youtu.be/nM_gEzvhsM0

Índios – Legião Urbana

Cifra: Principal – Tom: G

 

Intro Primeira Parte 3x: G  D

Intro Segunda Parte: Am7  D11  Bm  Em  Am  D7  Bm  Em7

Primeira Parte:

Am7
    Quem me dera ao menos uma vez
        D11
Ter de volta todo o ouro

Que entreguei a quem
      Bm7
Conseguiu me convencer 

Que era prova de amizade
      Em
Se alguém levasse embora

Até o que eu não tinha

Am7
    Quem me dera ao menos uma vez
      D11
Esquecer que acreditei 

Que era por brincadeira
     Bm7
Que se cortava sempre um pano de chão
    Em
De linho nobre e pura seda

Am7
    Quem me dera ao menos uma vez
      D11
Explicar o que ninguém 

Consegue entender
            Bm7
Que o que aconteceu ainda está por vir
       Em
E o futuro não é mais 

Como era antigamente

Am7
    Quem me dera ao menos uma vez
    D11
Provar que quem tem mais 

Do que precisa ter
       Bm7
Quase sempre se convence 

Que não tem o bastante
 Em
Fala demais por não ter nada a dizer

Am7
    Quem me dera ao menos uma vez
            D11
Que o mais simples fosse visto

Como o mais importante
Bm7
    Mas nos deram espelhos 
   Em
E vimos um mundo doente

Am7
    Quem me dera ao menos uma vez
      D11
Entender como um só Deus 

Ao mesmo tempo é três
        Bm7
E esse mesmo Deus foi morto por vocês
        Em
Sua maldade, então

Deixaram Deus tão triste

Segunda Parte:

C  G7M/B        Am7
   Eu quis o perigo
           D/F#          G
E até sangrei sozinho entenda
   D/F#                    Em
Assim pude trazer você de volta pra mim
        C
Quando descobri que é sempre só você
          D11       G        D/F#
Que me entende do início ao fim

Em
   E é só você que tem 
   C
A cura pro meu vício de insistir
          D11
Nessa saudade que eu sinto
                F11+      G
De tudo que eu ainda não vi

(repete segunda parte da intro)

Terceira Parte:

Am7
    Quem me dera ao menos uma vez
       D11
Acreditar por um instante 

Em tudo que existe
     Bm7
E acreditar que o mundo é perfeito
       Em
E que todas as pessoas são felizes

Am7
    Quem me dera ao menos uma vez
   D11
Fazer com que o mundo 

Saiba que seu nome
   Bm7
Está em tudo e mesmo assim
    Em
Ninguém lhe diz ao menos obrigado

Am7
    Quem me dera ao menos uma vez
D11
    Como a mais bela tribo
Bm7
    Dos mais belos índios
     Em
Não ser atacado por ser inocente

Segunda Parte:

C  G7M/B        Am7
   Eu quis o perigo
           D/F#          G
E até sangrei sozinho entenda
   D/F#                    Em
Assim pude trazer você de volta pra mim
        C
Quando descobri que é sempre só você
          D11       G        D/F#
Que me entende do início ao fim

Em
   E é só você que tem 
   C
A cura pro meu vício de insistir
          D11
Nessa saudade que eu sinto
                F11+      G
De tudo que eu ainda não vi

Final:

C
  Nos deram espelhos 
                   F11+  G
E vimos um mundo doente
                             (final)
Tentei chorar e não consegui

Intro Primeira Parte:

Parte 1

     G
E|-3---3--------5-x-7-----------------------|
B|-0-0-------0----x-------------------------|
G|-0-0-----0-0--5-x-7-----------------------|
D|-5-----0--------x-5-----------------------|
A|--------------3-x-------------------------|
E|------------------------------------------|
     ↓       ↓

Parte 2

     D            D11
E|-2---2-----0------------------------------|
B|---3----------3---3-----------------------|
G|-2-2-----2-0----0-------0-----------------|
D|-0------------4-4-----4-4-----------------|
A|-------0------5-----0---------------------|
E|------------------------------------------|
     ↓            ↓       ↓

Intro Segunda Parte:

Parte 1   

     Am7
E|---3-2-3----3-2-3----3-2-3----3-2-3-------|
B|-----1--------1--------1--------1---------|
G|-----0--------0--------0--------0---------|
D|------------------------------------------|
A|-0--------2--------3----------------------|
E|----------------------------3-------------|
       ↓        ↓        ↓        ↓

Parte 2

    D11
E|---5-3-5----5-3-5----5-3-5----5-3-5-------|
B|-----3--------3--------3--------3---------|
G|-----0--------0--------0--------0---------|
D|-----4--------4--------4--------4---------|
A|-5--------0--------5--------0-------------|
E|------------------------------------------|
       ↓        ↓        ↓        ↓

Parte 3

     Bm
E|---7-5-7----7-5-7----7-5-7----7-5-7-------|
B|-----0--------0--------0--------0---------|
G|-----7--------7--------7--------7---------|
D|------------------------------------------|
A|------------------------------------------|
E|-7--------7--------7--------7-------------|
       ↓        ↓        ↓        ↓

Parte 4

     Em
E|---7-5-7----7-5-7----7-5-7----7-5-7-------|
B|-----5--------5--------5--------5---------|
G|-----0--------0--------0--------0---------|
D|------------------------------------------|
A|------------------------------------------|
E|-0--------7--------0--------7-------------|
       ↓        ↓        ↓        ↓

Parte 5

     Am
E|---8-7-8----8-7-8----8-7-8----8-7-8-------|
B|-----8--------8--------8--------8---------|
G|-----0--------0--------0----0---0---------|
D|------------------------------------------|
A|-0----------------------------------------|
E|----------7--------8----------------------|
       ↓        ↓        ↓        ↓

Parte 6

     D7
E|---8-7-8----8-7-8----8-7-8----8-7-8-------|
B|-----7--------7--------7--------7---------|
G|-----7--------7--------7--------7---------|
D|-0-----------------0----------------------|
A|----------0-----------------0-------------|
E|------------------------------------------|
       ↓        ↓        ↓        ↓

Parte 7

     Bm
E|--10-8-10---10-8-10---10-8-10---10-8-10---|
B|-----7---------7---------7---------7------|
G|-----7---------7---------7---------7------|
D|------------------------------------------|
A|----------9-------------------9-----------|
E|-7------------------7---------------------|
       ↓         ↓         ↓         ↓

Parte 8

     Em7
E|--10-8-10---10-8-10---10-8-10---10-8-10---|
B|-----8---------8---------8---------8------|
G|-----7---------7---------7---------7------|
D|------------------------------------------|
A|-7------------------7---------------------|
E|----------7-------------------7-----------|
       ↓         ↓         ↓         ↓

Primeira Parte:

Parte 1

     Am7
E|---0---3----5--x--3---3-------------------|
B|---1-----------x--1---1-------------------|
G|---0--------5--x------0-------------------|
D|---2-----------x--------------------------|
A|-0---2---x--3--x--------------------------|
E|---------x-----x----3---------------------|
     ↓                  ↓

Parte 2

     D11
E|------------------------------------------|
B|---3---3-3-3----3---3-3-3-----------------|
G|---0---0-0-0----0---0-0-0-----------------|
D|---4---4-4-4----4---4-4-4-----------------|
A|-5---0--------5---0-----------------------|
E|------------------------------------------|
     ↓   ↑ ↓ ↑    ↓   ↑ ↓ ↑

Parte 3

     Bm7
E|------------------------------------------|
B|---3---3-3-3----3---3-3-3-----------------|
G|---0---0-0-0----0---0-0-0-----------------|
D|---4---4-4-4----4---4-4-4-----------------|
A|-2------------2---------------------------|
E|-----2------------2-----------------------|
     ↓   ↑ ↓ ↑    ↓   ↑ ↓ ↑

Parte 4

     Em
E|---0---0-0-0----0---0-0-0-----------------|
B|---0---0-0-0----0---0-0-0-----------------|
G|---0---0-0-0----0---0-0-0-----------------|
D|---2---2-2-2----2---2-2-2-----------------|
A|-----2------------2-----------------------|
E|-0------------0---------------------------|
     ↓   ↑ ↓ ↑    ↓   ↑ ↓ ↑

Final:

Parte 1 (2x)

E|-3-------2---0--------------------------------------|
B|-0-0-0---------0-0---3---1-------0------------------|
G|---0-0---2---0-0-0---------0-0-------2---0----------|
D|---0-0---------0-0---4---2-0-0---0---0---0----------|
A|-----------x-----------x-----------x---x---x--------|
E|-3-----3---x-3-----3---x-3-----3---x-0-x-3-x--------|
     ↑ ↓         ↑ ↓         ↑ ↓       

Parte 2

E|-3-------2---0---------------------------3----------|
B|-0-0-0---------0-0---3---1-------0-------3----------|
G|---0-0---2---0-0-0---------0-0-------2---0----------|
D|---0-0---------0-0---4---2-0-0---0---0---0----------|
A|-----------x-----------x-----------x---x-2----------|
E|-3-----3---x-3-----3---x-3-----3---x-0-x-3----------|
     ↑ ↓         ↑ ↓         ↑ ↓

Observe mais: FÁTIMA, SÓ POR HOJEYES OU SISTEMA DE MELHORAMENTO DA JUVENTUDEFalando sobre Pato FuRESERVE™Tarde VaziaNAARA BEAUTY DRINK!!! Sexo seguro!VIDACELL®O Estado Laico, CADÊ OS ÍNDIOS QUE ESTAVAM AQUI?CARNAVAL É PERFEIÇÃO!INSTANTLY AGELESS ™Que País É Esse?

É Assim Que Me Querem

Ira! – E Assim Que Me Querem (MTV Ao Vivo) – Deckdisc

Tom: G – cifraclub

(riff)

E |-----------------------------------------
B |-----------------------------------------
G |------------2/4-------------2--2b--0-----
D |-------0h2-------------0h2------------2--
A |--0h2-------------0h2--------------------
E |-----------------------------------------


G C G C G C

G
Estou sonhando de olhos abertos
C
Estou fugindo da realidade
G
Todas as cervejas já bebi
C
Todos os baseados já fumei
Em                    Bm
O que há de errado no mundo
                        Em
Meus olhos já não podem ver
                  C
Eu estou do jeito certo
                         D
Pra qualquer compromisso assumir
Em
É assim que me querem
Bm
Sem que possa pensar
C
Sem que possa lutar
D
Por um ideal
Em
É assim que me querem
Bm
Ao ver na TV todo o sangue jorrar
C
E ainda aprovar
D             G
A pena capital
C          G C
A pena capital

G
Estou sonhando de olhos abertos
C
Estou fugindo da realidade
G
Todas as cervejas já bebi
C
Todos os baseados já fumei
Em                    Bm
O que há de errado no mundo
                        Em
Meus olhos já não podem ver
                  C
Eu estou do jeito certo
                          D
Pra qualquer compromisso assumir
Em
É assim que me querem
Bm
Sem que possa pensar
C
Sem que possa lutar
D
Por um ideal
Em
É assim que me querem
Bm
Ao ver na TV todo o sangue jorrar
C
E ainda aprovar
D          G
A pena capital
C          G C
A pena capital



C              Em
É assim que me querem
C              Em       C  D
É assim que me querem   ô, ô

Intro: G C G C G C
Solo


Em
E me vendem essa droga
F#m
E me proíbem essa droga
G                                          A
Para os desavisados poderem pensar que o governo combate
Em
Invadindo a favela
F#m
Empunhando fuzis
G                                    A
Juntando dinheiro corrupto para a platina no nariz

Em
É assim que me querem
Bm
Sem que possa pensar
C
Sem que possa lutar
D
Por um ideal
Em
É assim que me querem
Bm
Ao ver na TV todo o sangue jorrar
C
E ainda aprovar
D          G
A pena capital
C           G C
A pena capital

C              Em
É assim que me querem
C              Em       C  D
É assim que me querem   ô, ô

Intro: G C G C G C
Solo:

Em                     Bm C D
É assim que me querem
Em                     Bm C D    3X
É assim que me querem
Em                    Bm C D
É assim que me querem


Eu Sei.

Intro: G C G C G C
Solo

IRA! A Volta! Tour Núcleo Base

Observe mais: CIDADES DEMOCRÁTICASLUMINESCE™POLICIAL DA FLÓRIDA MOSTRA COMO SE TRATA RECLAMAÇÃO DE QUE GAROTOS ESTÃO JOGANDO BASQUETE NA RUAYES OU SISTEMA DE MELHORAMENTO DA JUVENTUDEA RAINHA DE MAIONAARA BEAUTY DRINK!!!VAMOS VIRAR JAPONÊSEMVVIDA SIMPLESVIA LÁCTEA PELO NAVEGADORINSTANTLY AGELESS ™MEDICINA TRADICIONAL YANOMAMI ON-LINETHE JOLLY BOYSVIDACELL®AQUELA PAZ, CHEIRANDO COLARESERVE™BANDEIRANTES MODERNOSVIDA INTELIGENTE.LEI BRASILEIRA DE INCLUSÃO DAS PESSOAS COM DEFICIÊNCIA