Rivers of Babylon

Rivers of Babylon – Sublimecifraclub

Cifra: Principal

exibições61.398

Tom: G

riff
2x
|-------------3--3-3--3-3-3-----|
|-------------3--3-3--3-3-3-----|
|-------------0--0-0--0-0-0-----|
|-------------0--0-0--0-0-0-----|
|------2-2-3--2--2-2--2-2-2-----|
|--3-3--------3--3-3--3-3-3-----|

|-------------2--2-2--3-2-2-----|
|-------------3--3-3--3-3-3-----|
|-------------2--2-2--2-2-2-----|
|-------------0--0-0--0-0-0-----|
|--2-2-3-3-2--------------------|
|-------------------------------|

|----------------3--3-3--3-3-3--|
|----------------3--3-3--3-3-3--|
|----------------0--0-0--0-0-0--|
|--0-0-02--------0--0-0--0-0-0--|
|----------02----2--2-2--2-2-2--|
|--------------3-3--3-3--3-3-3--|


verse:
                 G
By the rivers of babylon
             G
Where he sat down
             D
and there he wept
                   G
when we remembered Zion


refrão:

Alpha the wicked 
G
carry us away captivity 
  C
required from us a song
G
how can we sing King Alfa's song
      D          G
In a strange land
           
           G            D
so let the words of our mouths
              G           D
and the meditation of our hearts
       G             D      
be acceptable in thy sight
         G
Over I

repete o riff

repete o verso

repete o refrao

G
how can we sing King Alfa's song
     D           G
in a strange land


notas usadas:

    G           D           C
|---3---|   |---2---|   |---0---|
|---3---|   |---3---|   |---1---|
|---0---|   |---2---|   |---0---|
|---0---|   |---0---|   |---2---|
|---2---|   |-------|   |---3---|
|---3---|   |-------|   |-------|

    • ½ tom
    • A
    • A#
    • B
    • C
    • C#
    • D
    • D#
    • E
    • F
    • F#
    • G
    • G#
Acordes para:violão e guitarratecladocavacoukulele
  • C

    123
    X32010
  • D

    123
    XX0232
  • G

    123
    320003

Deixe um comentário

Preencha os seus dados abaixo ou clique em um ícone para log in:

Logotipo do WordPress.com

Você está comentando utilizando sua conta WordPress.com. Sair /  Alterar )

Foto do Google

Você está comentando utilizando sua conta Google. Sair /  Alterar )

Imagem do Twitter

Você está comentando utilizando sua conta Twitter. Sair /  Alterar )

Foto do Facebook

Você está comentando utilizando sua conta Facebook. Sair /  Alterar )

Conectando a %s